Уроки Игры На Гитаре

Искусство и развлечения - Уроки Игры На Гитаре - Узоры Перебор

fsserw | Просмотров: 730



Существует бесчисленное множество моделей для фингерпикинг и почти все из них могут быть очень трудно освоить. Кроме того, взяв под контроль все струны довольно сложно. В следующей статье-небольшая выработка некоторых очень хороших фингерпикинг и узоры fingerplucking и их душевная мелодия. Чтобы узнать больше, читайте дальше. Искусство fingerplucking или фингерпикинг, также называемый fingerstyling гитара очень старая и может быть прослежена до происхождения этого музыкального инструмента сам. Основные узоры для гитары, вероятно, начали эволюционировать как люди в Европе в 14 веке началось строительство акустических гитар. В более ранние дни развития акустических гитар, fingerplucking был в основном использован для широкий диапазон нот, которые могут быть нарветесь на время. Это позволяет гитаристу включить как скрипичный ключ, а также басовый ключ в то же время. После введения электрических гитар значимость гитаре фингерпикинг резко сократилась, но мелодия остается той же.

--- Левша гитара аккорды

Узоры Перебор

--- Легкие Аккорды

Шаблоны для фингерпикинг оформлены таким образом, что они, как правило, используют оба басовых линий, а также более высокие ноты, в то же время, тем самым делая музыку душевный. Вы можете провести эксперимент сами, нажать на кнопку C обратите внимание на вторую строку и просто вырви его. Далее удерживайте Примечание второй строки и на четвертой строке. Играть вторую строку с указательным пальцем и один на 4 строки с ваш средний палец, а потом, наблюдать красоту его мелодии.

А перебор на гитаре, большой палец используется, чтобы играть в первых двух струн (Е, А), а остальные пальцы используются для игры в остальные 4 строки. Наблюдается отчетливое чередование между основными строками и ВЧ строк. В большинстве моделей, базовые ноты воспроизводятся после набора скрипичный ключ. Следовательно, в то время как играть фингерпикинг композиций, вы будет включать несколько нот с помощью большого пальца. Общие фингерпикинг стили, как правило, на основе простых аккордов и играть такие ноты очень легко. Поэтому, когда вы читаете вкладки, сделать это в точку, чтобы знать, какой аккорд эти заметки относятся к. Продвинутые модели воспроизводятся с помощью капо и часто, вы будете держать тюнинг первые 2 строки, как Е И А, а остальные четыре будут иметь более высокие настройки в результате капо.

Очень важно: при использовании фингерпикинг или выщипывание метод, сделать его точкой, чтобы нажать на строку с вашим поразительным пальцем, а не потянув его вверх. Прижимая ее вниз и затем отпустить ее, как правило, создает приятный звук. Также не бросаться в строку, как будто вы пытаетесь ударить его, или на другом конце не ленивый и медленный удар. Ваши пальцы должны выбрать или срывать строки, время должно быть таким сознательным, что он не должен быть очень быстрым и в то же время не должна быть слишком медленной.

Фингерпикинг Скороговорки: Вкладки

Следующие две вкладки шаблонов, которые вы можете попробовать свои силы в. Помните, чтобы найти масштабы и аккорд, к которому принадлежат отдельные ноты, а не просто слепо следующие вкладки. Найти аккорд и масштаб поможет Вам сделать лучше тон и звук. Взяв уроки игры на гитаре может помочь.

Классическая Газовая Мейсон Уильямс

Стандартном строе eadgbe оставьте

Интро:
3/4 , . . , . . , . . , . .
||----------------|-------------|-------------|-------------|
||-Т--1-------1---|---0---------|---0---------|-------------|
||-В------2-------|--0----------|--0--2---0---|---2---------|
||-Б--------------|-------------|-------------|--2----------|
||----0-----------|-------------|-------------|-0-----------|
||----------------|-3---------2-|-0-----------|-------------|

, . . , . . , . . , . .
|--------------|-------------|----------------|-------------|
|---0х1----0х1-|---0---------|---0----------0-|-------------|
|--2---2-------|--0----------|--0---2--0-0h2--|---2---------|
|--------------|-------------|----------------|--2----------|
|-0------------|-------------|----------------|-0-----------|
|--------------|-3---------2-|-0--------------|-------------|

, . . 4/4 , . , . , . , . 0'20"
|-------------------|--0----------------|-----------------||
|-----------------3-|--------3-1---3----|---1-0-----------||
|-----0-----0---0---|------0---2--------|-----------------||
|---0-----0---------|-------------------|-2---------------||
|-------0-----2-----|--3----------------|-----------------||
|-3-----------------|-------------------|-----------------||

ЧАСТЬ A:
, . , . , . , . , . , .
||--------------------|-----------------|-----------------|
||--0h1p0-1-----1---0-|-----------------|-0---------0-----|
||*---------2---------|-----0-----0-----|---2-0-2-------2-|
||*---------------2---|---0-----0-----0-|-----------------|
||--0---------0-------|-----------------|-----------------|
||--------------------|-3-----2-----0---|-0-------0---0---|

1,2,3. ------------. 4. ---------------
, . , . , . , . , . , .
|------------------||-----------------|-----------------|
|------------------||-------0-----0-1-|-----1-----3-----|
|-----2-----2-----*||-----2-----0-----|---2-----0-----0-|
|---2-----2-----2-*||---2-------------|-----------------|
|-0-----0-----0----||-0---------------|-0-----2-----2---|
|------------------||---------3-------|-----------------|

6/4, . , . , . 4/4, . , . , . , .
|--0--------------------|-----------------|-----------------|
|-------3-1--3----1p0---|-----------------|-------0-----0-1-|
|-----0---2---------0---|-2-----0-2-2---0-|-2---2-----0-----|
|---------------2-------|---------2-------|---2-------------|
|--3--------------------|-----------------|-0---------------|
|-----------------------|-1-------0-------|---------3-------|

, . , . 3/4 , . . , . . , . . 0'54"
|-----------------|--0-----1-----|-2-----3-----|-4---5p0--7----||
|-----1-----3-----|----1-----1---|---1-----0---|---0----0---0--||
|---2-----0-----0-|------0-----2-|-----2-----0-|---------------||
|-----------------|--------------|-0-----------|---------------||
|-0-----2-----2---|--3-----------|-------------|---------------||
|-----------------|--------1-----|-------3-----|-0-------------||

ЧАСТЬ B:
4/4 , . , . , . , . , . , .
||--8-7-------------|---------5-------|-8-7-------------|
||-----10-8--10---7-|--10-7-----5-----|----10-8--10---7-|
||--------9---9---7-|-----7-----5-----|-----------9---7-|
||------------------|-0-----0---------|-----------------|
||--0-------0---0---|-------------0---|-0-------0---0---|
||------------------|-----------------|-----------------|

, . , . , . , . , . , .
|-------5----------|-8-7-------------|-----8----------3-|
|---8-----7------0-|----10-8--10---7-|----10-10-8-----3-|
|---9-----7----0---|-------9---9---7-|----------9-------|
|-0---0-----0h2----|-----------------|-0-0--------0-----|
|------------------|-0-------0---0---|------------------|
|------------------|-----------------|------------------|

5/4, . , . . 6/4, . , . , .
|------------1----------|---0-----0-----0-----0---|
|------5-----1-----3----|---3-----3-----3-----3---|
|------5-----2-----3----|---2-----2-----2-----2---|
|------5-0---------3-0--|-------------------------|
|----5-----------1------|-0-----0-----0-----0-----|
|--3-------1---1--------|-------------------------|

4/4, . , . , . , . 1'10"
|----------------0-|------------------||
|------------3-----|---3---------3p0--||
|--------2---------|-------2---2------||
|----3-------------|---------3--------||
|--0---------------|------------------||
|------------------|------------------||

ЧАСТЬ C:
, . , . , . , . , . , .
||-------------------|-----------------|-------------------|
||-0h1p0-1---------3-|-----1-----0-----|-0h1p0-1---------0-|
||---------2-----2---|-----------------|---------2-----2---|
||-------------2-----|---2-----2-----2-|-------------2-----|
||-0---------0-------|-0-----0-----0---|-0---------0-------|
||-------------------|-----------------|-------------------|

, . , . , . , . , . , .
|-----------------|-------------------|-----------------|
|-----------------|-0h1p0-1---------0-|-----1-----3-----|
|-----2-----0-----|---------2-----2---|-----------------|
|---2-----2-----2-|-------------2-----|---2-----2-----2-|
|-0-----0-----0---|-0---------0-------|-0-----0-----0---|
|-----------------|-------------------|-----------------|

, . , . , . , . 1'22"
|-----------------|------------------||
|-5---5-3---3-1---|-1-0---0---0-1-0--||
|---5-----4-----2-|-----0---2--------||
|-----------------|------------------||
|-0-----0-----0---|---0-----0--------||
|-----------------|------------------||

ЧАСТЬ D:
, . , . , . , . , . , .
||-0---0-----------|---------1p0-----|-0---0-----------|
||---3---1-----1-0-|-----3-------3---|---3---1-----1-0-|
||-----------0-----|---0---0-------0-|-----------2-----|
||-----------------|-----------------|-----------------|
||-3-------3-------|-2---2---2-------|-0-------0-------|
||-----------------|-----------------|-----------------|

, . , . , . , . , . , .
|---------1p0-----|-0---0-----------|---------1p0-----|
|-----3-------3---|---3---1-----1-0-|-----3-------3---|
|---0---0-------0-|-----------0-----|---0---0-------0-|
|-----------------|-----------------|-----------------|
|-----------------|-3-------3-------|-2---2---2-------|
|-3---3---3-------|-----------------|-----------------|

, . , . , . , . , . , .
|-0---0-----------|-----------------|-----------------|
|---3---1-----1-0-|-----------------|-0---------0-----|
|-----------2-----|-----0-----0-----|---2-0-2---0---0-|
|-----------------|---0-----0-----0-|-----------------|
|-0-------0-------|-----------------|-----------------|
|-----------------|-3-----2-----0---|-0-------0---0---|

, . , . , . , . 3/4, . . 1'38"
|-----------------|-0---1---2---3---|-4-----5p0---7-----||
|-----0---1---3---|---------------0-|----0-----0-----0--||
|-2-----0---0---0-|---0---2---2-----|-------------------||
|---2-------------|---------0-------|-------------------||
|-0-------0---2---|-3---------------|-------------------||
|-----3-----------|-----1-------3---|-0-----0-----0-----||

Часть Б2:
4/4 , . , . , . , . , . , .
||--8-7-------------|---------5-------|-8-7-------------|
||-----10-8--10---7-|--10-7-----5-----|----10-8--10---7-|
||--------9---9---7-|-----7-----5-----|-----------9---7-|
||------------------|-0-----0---------|-----------------|
||--0-------0---0---|-------------0---|-0-------0---0---|
||------------------|-----------------|-----------------|

, . , . , . , . , . , .
|-------5----------|-8-7-------------|-----8----------3-|
|---8-----7------0-|----10-8--10---7-|----10-10-8-----3-|
|---9-----7----0---|-------9---9---7-|----------9-------|
|-0---0-----0h2----|-----------------|-0---0------------|
|------------------|-0-------0---0---|------------0-----|
|------------------|-----------------|------------------|

5/4, . , . . 6/4, . , . , . 4/4, . , . 1'56"
|------------1----------|---0-----0-----0-----0---|-----0-----------||
|------5-----1-----3----|---3-----3-----3-----3---|------3----------||
|------5-----2-----3----|---2-----2-----2-----2---|-------2---------||
|------5-0---------3-0--|-------------------------|---3----3--------||
|----5------------------|-0-----0-----0-----0-----|-0---------------||
|--3-------1---1/3------|-------------------------|-----------------||

Часть А2:
, . , . , . , . , . , .
||-------------------|-----------------|-----------------|
||-0h1p0-1-----1---0-|-----------------|-0---------0-----|
||---------2---------|-----0-----0-----|---2-0-2-------2-|
||---------------2---|---0-----0-----0-|-----------------|
||-0---------0-------|-----------------|-----------------|
||-------------------|-3-----2-----0---|-0-----------0---|

, . , . , . , . , . , .
|-----------------|-------------------|-----------------|
|-----------------|-0h1p0-1-----1---0-|-----------------|
|-----2-----2-----|---------2---------|-----0-----0-----|
|---2-----2-----2-|-------------------|---0-----0-----0-|
|-0-----0-----0---|-----------0-------|-----------------|
|-----------------|-------------------|-3-----2-----0---|

, . , . , . , . , . , .
|-----------------|-----------------|-----------------|
|-0---------0-----|-------0-----0-1-|-----1-----3-----|
|---2-0-2-------2-|-----2-----0-----|---2-----0-----0-|
|-----------------|---2-------------|-----------------|
|-----------------|-0---------------|-0-----2-----2---|
|-0-------0---0---|---------3-------|-----------------|

6/4, . , . , . 4/4, . , . , . , .
|--0--------------------|-----------------|-----------------|
|-------3-1--3----1p0---|-----------------|-----0---1---3---|
|-----0---2-------------|-2-----0-2-2---0-|-2-----0---0---0-|
|---------------2--р0---|---------2-2-----|---2-------------|
|--3--------------------|-----------------|-0-------0---2---|
|-----------------------|-1-------0-------|-----3-----------|

, . , . 3/4, . . 2'17"
|-0---1---2---3---|-4-----5p0---7--5--||
|---------------0-|----0-----0--------||
|---0---2---2-----|-------------------||
|---------0-------|-------------------||
|-3---------------|-------------------||
|-----1-------3---|-0-----0-----0-----||

КОДОЙ:
4/4 , . , . , . , . , . , .
||------------3-----|-------1----------|---------------0-|
||------7-----3-----|-5-----1-----3----|-----------3-----|
||------7-----4-----|-5-----2-----3----|-------2---------|
||------7-0---------|-5-0---------3-0--|---3-------------|
||----5-----------3-|-----------1------|-0---------------|
||--5-------3---3---|-----1---1--------|-----------------|

, . , . , . , . , . , .
|------------------|---------------0-|----------------|
|---3---------3----|-----------3-----|---3---------3--|
|-------2---2---0--|-------2---------|-------2---2----|
|---------3--------|---4-------------|---------4------|
|------------------|-0---------------|----------------|
|------------------|-----------------|----------------|

, . , . . Помимо обучения вкладок Вы также можете обратиться к некоторым хорошим гитаре фингерпикинг-уроки, которые могут помочь вам обрести плавность в движения пальцев. Пусть эти пальцы свободно скользят по струнам, и гитара должна играть сама, давая музыку в вашем сердце, мелодичным ответ.


Комментарии


Ваше имя:

Комментарий:

ответьте цифрой: дeвять + пять =